TAB:HIM - ONE LAST TIME


BAND   HIM
SONG   One Last Time
ALBUM   Razorblade Romance
TABBED BY   Tobias Münch
TUNING   Standard tuning


Main Riff (Chorus Riff)
e|--------------------------------------|
B|--------------------------------------|
G|--------------------------------------|
D|--------6---------6-------------------|
A|------4----6-4-6------4-6-4----6-4-6--|
E|--5-7---------------------------------|


Variation of Main Riff
e|--------------------------------------|
B|--------9---------7-------------------|
G|------6----6-4-6------4-6-4----6-4-6--|
D|--7-9---------------------------------|
A|--------------------------------------|
E|--------------------------------------|

And that's it already for the song. In the live version I have, the second riff is played
after the second verse&chorus as a kind of solo intro. Then Mikko variates the theme
more into a solo. The ability of improvising may be helpful here!


Lyrics:

Is it so hard to believe our hearts
Are made to be broken by love
That in constant dying lies
The beauty of it all
My darling won't you feel
The sweet heaven in
Our endless cry

Oh at least you could trust
For this one last time

So amazed how bright are the flames
We are burning in
Ever smiled at the tragedies
We hold inside
My darling won't you cherish
The fear of life that keeps
You and me so alive

Oh at least you could trust
For this one last time
It could be alright
For this one last time

Oh at least you could trust
(and we just will be closer)
For this one last time
(let me fall into your arms)
It could be alright
(don't let us grow colder)
For this one last time
(let me close to your heart


[PRINT:TAB]